ISO-10303-21;
HEADER;
FILE_DESCRIPTION (( 'STEP AP203' ),
    '1' );
FILE_NAME ('Q-QZWP-R4-20-633-M.STEP',
    '2020-12-23T01:26:05',
    ( '' ),
    ( '' ),
    'SwSTEP 2.0',
    'SolidWorks 2020',
    '' );
FILE_SCHEMA (( 'CONFIG_CONTROL_DESIGN' ));
ENDSEC;

DATA;
#1 = ORIENTED_EDGE ( 'NONE', *, *, #102, .F. ) ;
#2 = CARTESIAN_POINT ( 'NONE',  ( 3.000000000000000000, 0.000000000000000000, 0.000000000000000000 ) ) ;
#3 = APPROVAL ( #70, 'UNSPECIFIED' ) ;
#4 = EDGE_LOOP ( 'NONE', ( #10, #234, #171, #31 ) ) ;
#5 = APPROVAL_STATUS ( 'not_yet_approved' ) ;
#6 = PERSON_AND_ORGANIZATION ( #91, #13 ) ;
#7 = LOCAL_TIME ( 9, 26, 5.000000000000000000, #205 ) ;
#8 = COORDINATED_UNIVERSAL_TIME_OFFSET ( 8, 0, .AHEAD. ) ;
#9 = ORIENTED_EDGE ( 'NONE', *, *, #303, .F. ) ;
#10 = ORIENTED_EDGE ( 'NONE', *, *, #102, .T. ) ;
#11 = CARTESIAN_POINT ( 'NONE',  ( -1.614212418857619014, 0.000000000000000000, 10.00000000000000000 ) ) ;
#12 = ORIENTED_EDGE ( 'NONE', *, *, #81, .F. ) ;
#13 = ORGANIZATION ( 'UNSPECIFIED', 'UNSPECIFIED', '' ) ;
#14 = CIRCLE ( 'NONE', #115, 12.69999999999999929 ) ;
#15 = CARTESIAN_POINT ( 'NONE',  ( 2.999999999999999112, 0.000000000000000000, 0.000000000000000000 ) ) ;
#16 = EDGE_LOOP ( 'NONE', ( #59, #322, #296, #239 ) ) ;
#17 = CARTESIAN_POINT ( 'NONE',  ( 0.000000000000000000, 0.000000000000000000, 0.000000000000000000 ) ) ;
#18 = DIRECTION ( 'NONE',  ( -1.000000000000000000, -0.000000000000000000, -0.000000000000000000 ) ) ;
#19 = DIRECTION ( 'NONE',  ( 0.000000000000000000, 0.000000000000000000, 1.000000000000000000 ) ) ;
#20 = CIRCLE ( 'NONE', #75, 10.00000000000000000 ) ;
#21 = FACE_OUTER_BOUND ( 'NONE', #276, .T. ) ;
#22 = ORIENTED_EDGE ( 'NONE', *, *, #316, .T. ) ;
#23 = CARTESIAN_POINT ( 'NONE',  ( -3.000000000000000444, 0.000000000000000000, 10.00000000000000000 ) ) ;
#24 = ORIENTED_EDGE ( 'NONE', *, *, #155, .F. ) ;
#25 = CARTESIAN_POINT ( 'NONE',  ( -2.500000000000000444, 10.00000000000000000, 0.000000000000000000 ) ) ;
#26 = EDGE_CURVE ( 'NONE', #104, #297, #14, .T. ) ;
#27 = CIRCLE ( 'NONE', #219, 12.69999999999999929 ) ;
#28 = CLOSED_SHELL ( 'NONE', ( #30, #224, #307, #92, #53, #86, #60, #280, #254, #137 ) ) ;
#29 = DIRECTION ( 'NONE',  ( -0.000000000000000000, 0.000000000000000000, 1.000000000000000000 ) ) ;
#30 = ADVANCED_FACE ( 'NONE', ( #148 ), #323, .T. ) ;
#31 = ORIENTED_EDGE ( 'NONE', *, *, #236, .F. ) ;
#32 = CARTESIAN_POINT ( 'NONE',  ( -1.614212418857619014, 0.000000000000000000, 10.00000000000000000 ) ) ;
#33 = AXIS2_PLACEMENT_3D ( 'NONE', #25, #279, #74 ) ;
#34 = CALENDAR_DATE ( 2020, 23, 12 ) ;
#35 = APPROVAL_STATUS ( 'not_yet_approved' ) ;
#36 = LOCAL_TIME ( 9, 26, 5.000000000000000000, #268 ) ;
#37 = CIRCLE ( 'NONE', #166, 10.00000000000000000 ) ;
#38 = ORIENTED_EDGE ( 'NONE', *, *, #73, .F. ) ;
#39 = DIRECTION ( 'NONE',  ( -1.000000000000000000, -0.000000000000000000, -0.000000000000000000 ) ) ;
#40 = VERTEX_POINT ( 'NONE', #223 ) ;
#41 = EDGE_CURVE ( 'NONE', #250, #122, #37, .T. ) ;
#42 = AXIS2_PLACEMENT_3D ( 'NONE', #283, #230, #49 ) ;
#43 = DIRECTION ( 'NONE',  ( 1.000000000000000000, 0.000000000000000000, 0.000000000000000000 ) ) ;
#44 = CARTESIAN_POINT ( 'NONE',  ( -1.614212418857619014, 0.000000000000000000, 0.000000000000000000 ) ) ;
#45 = PERSON_AND_ORGANIZATION_ROLE ( 'design_owner' ) ;
#46 = DATE_AND_TIME ( #227, #7 ) ;
#47 = CARTESIAN_POINT ( 'NONE',  ( -1.614212418857619014, 0.000000000000000000, 12.69999999999999929 ) ) ;
#48 = EDGE_CURVE ( 'NONE', #132, #40, #302, .T. ) ;
#49 = DIRECTION ( 'NONE',  ( 0.000000000000000000, 0.000000000000000000, 1.000000000000000000 ) ) ;
#50 = AXIS2_PLACEMENT_3D ( 'NONE', #64, #275, #246 ) ;
#51 = LINE ( 'NONE', #206, #256 ) ;
#52 = FACE_BOUND ( 'NONE', #265, .T. ) ;
#53 = ADVANCED_FACE ( 'NONE', ( #68 ), #144, .F. ) ;
#54 = DIRECTION ( 'NONE',  ( -1.000000000000000000, -0.000000000000000000, -0.000000000000000000 ) ) ;
#55 = CARTESIAN_POINT ( 'NONE',  ( 2.500000000000000888, 0.000000000000000000, 0.000000000000000000 ) ) ;
#56 = SHAPE_DEFINITION_REPRESENTATION ( #263, #183 ) ;
#57 = AXIS2_PLACEMENT_3D ( 'NONE', #150, #18, #71 ) ;
#58 = CALENDAR_DATE ( 2020, 23, 12 ) ;
#59 = ORIENTED_EDGE ( 'NONE', *, *, #41, .T. ) ;
#60 = ADVANCED_FACE ( 'NONE', ( #198, #299 ), #95, .F. ) ;
#61 = CARTESIAN_POINT ( 'NONE',  ( 3.000000000000000000, 0.000000000000000000, 0.000000000000000000 ) ) ;
#62 = ORIENTED_EDGE ( 'NONE', *, *, #257, .F. ) ;
#63 = EDGE_LOOP ( 'NONE', ( #313, #185 ) ) ;
#64 = CARTESIAN_POINT ( 'NONE',  ( -3.000000000000000000, 10.00000000000000000, 0.000000000000000000 ) ) ;
#65 = EDGE_LOOP ( 'NONE', ( #143, #9 ) ) ;
#66 = EDGE_CURVE ( 'NONE', #260, #132, #20, .T. ) ;
#67 = APPROVAL_ROLE ( '' ) ;
#68 = FACE_OUTER_BOUND ( 'NONE', #311, .T. ) ;
#69 = CIRCLE ( 'NONE', #57, 10.00000000000000000 ) ;
#70 = APPROVAL_STATUS ( 'not_yet_approved' ) ;
#71 = DIRECTION ( 'NONE',  ( 0.000000000000000000, 0.000000000000000000, 1.000000000000000000 ) ) ;
#72 = CARTESIAN_POINT ( 'NONE',  ( -1.614212418857619014, 0.000000000000000000, 0.000000000000000000 ) ) ;
#73 = EDGE_CURVE ( 'NONE', #237, #247, #114, .T. ) ;
#74 = DIRECTION ( 'NONE',  ( 0.000000000000000000, 0.000000000000000000, -1.000000000000000000 ) ) ;
#75 = AXIS2_PLACEMENT_3D ( 'NONE', #15, #39, #121 ) ;
#76 = CARTESIAN_POINT ( 'NONE',  ( 2.500000000000000888, 0.000000000000000000, 0.000000000000000000 ) ) ;
#77 = ORIENTED_EDGE ( 'NONE', *, *, #317, .T. ) ;
#78 = CC_DESIGN_PERSON_AND_ORGANIZATION_ASSIGNMENT ( #328, #164, ( #269 ) ) ;
#79 = CARTESIAN_POINT ( 'NONE',  ( -1.614212418857619014, 0.000000000000000000, 0.000000000000000000 ) ) ;
#80 = DIRECTION ( 'NONE',  ( 0.000000000000000000, 0.000000000000000000, 1.000000000000000000 ) ) ;
#81 = EDGE_CURVE ( 'NONE', #333, #244, #195, .T. ) ;
#82 = APPROVAL_ROLE ( '' ) ;
#83 = PERSON_AND_ORGANIZATION_ROLE ( 'classification_officer' ) ;
#84 = AXIS2_PLACEMENT_3D ( 'NONE', #331, #100, #233 ) ;
#85 = DATE_TIME_ROLE ( 'creation_date' ) ;
#86 = ADVANCED_FACE ( 'NONE', ( #108 ), #215, .F. ) ;
#87 = PERSON_AND_ORGANIZATION ( #91, #13 ) ;
#88 = ORIENTED_EDGE ( 'NONE', *, *, #316, .F. ) ;
#89 = ORIENTED_EDGE ( 'NONE', *, *, #303, .T. ) ;
#90 = AXIS2_PLACEMENT_3D ( 'NONE', #79, #160, #314 ) ;
#91 = PERSON ( 'UNSPECIFIED', 'UNSPECIFIED', 'UNSPECIFIED', ('UNSPECIFIED'), ('UNSPECIFIED'), ('UNSPECIFIED') ) ;
#92 = ADVANCED_FACE ( 'NONE', ( #286 ), #136, .F. ) ;
#93 = DIRECTION ( 'NONE',  ( -1.000000000000000000, -0.000000000000000000, -0.000000000000000000 ) ) ;
#94 = ORIENTED_EDGE ( 'NONE', *, *, #81, .T. ) ;
#95 = PLANE ( 'NONE',  #50 ) ;
#96 = EDGE_LOOP ( 'NONE', ( #1, #119 ) ) ;
#97 = EDGE_CURVE ( 'NONE', #40, #145, #282, .T. ) ;
#98 = VECTOR ( 'NONE', #258, 1000.000000000000000 ) ;
#99 =( NAMED_UNIT ( * ) SI_UNIT ( $, .STERADIAN. ) SOLID_ANGLE_UNIT ( ) );
#100 = DIRECTION ( 'NONE',  ( 1.000000000000000000, 0.000000000000000000, 0.000000000000000000 ) ) ;
#101 = DIRECTION ( 'NONE',  ( -1.000000000000000000, -0.000000000000000000, -0.000000000000000000 ) ) ;
#102 = EDGE_CURVE ( 'NONE', #297, #104, #192, .T. ) ;
#103 = DIRECTION ( 'NONE',  ( 0.000000000000000000, 0.000000000000000000, 1.000000000000000000 ) ) ;
#104 = VERTEX_POINT ( 'NONE', #184 ) ;
#105 = DIRECTION ( 'NONE',  ( -1.000000000000000000, -0.000000000000000000, -0.000000000000000000 ) ) ;
#106 = ORIENTED_EDGE ( 'NONE', *, *, #97, .T. ) ;
#107 = CARTESIAN_POINT ( 'NONE',  ( 2.999999999999999112, 0.000000000000000000, 10.00000000000000000 ) ) ;
#108 = FACE_OUTER_BOUND ( 'NONE', #298, .T. ) ;
#109 = VECTOR ( 'NONE', #152, 1000.000000000000000 ) ;
#110 = PRODUCT_RELATED_PRODUCT_CATEGORY ( 'detail', '', ( #190 ) ) ;
#111 = DATE_TIME_ROLE ( 'classification_date' ) ;
#112 = PERSON_AND_ORGANIZATION ( #91, #13 ) ;
#113 = DIRECTION ( 'NONE',  ( 0.000000000000000000, 0.000000000000000000, 1.000000000000000000 ) ) ;
#114 = CIRCLE ( 'NONE', #146, 10.00000000000000000 ) ;
#115 = AXIS2_PLACEMENT_3D ( 'NONE', #61, #167, #273 ) ;
#116 = APPROVAL_DATE_TIME ( #165, #202 ) ;
#117 = ORIENTED_EDGE ( 'NONE', *, *, #66, .T. ) ;
#118 = DIRECTION ( 'NONE',  ( -1.000000000000000000, -0.000000000000000000, -0.000000000000000000 ) ) ;
#119 = ORIENTED_EDGE ( 'NONE', *, *, #26, .F. ) ;
#120 = AXIS2_PLACEMENT_3D ( 'NONE', #335, #54, #266 ) ;
#121 = DIRECTION ( 'NONE',  ( 0.000000000000000000, 0.000000000000000000, 1.000000000000000000 ) ) ;
#122 = VERTEX_POINT ( 'NONE', #187 ) ;
#123 = COORDINATED_UNIVERSAL_TIME_OFFSET ( 8, 0, .AHEAD. ) ;
#124 = PERSON_AND_ORGANIZATION ( #91, #13 ) ;
#125 = CYLINDRICAL_SURFACE ( 'NONE', #222, 10.00000000000000000 ) ;
#126 = EDGE_CURVE ( 'NONE', #250, #237, #161, .T. ) ;
#127 = CC_DESIGN_PERSON_AND_ORGANIZATION_ASSIGNMENT ( #220, #320, ( #209 ) ) ;
#128 = VECTOR ( 'NONE', #253, 1000.000000000000000 ) ;
#129 = FACE_OUTER_BOUND ( 'NONE', #96, .T. ) ;
#130 = PLANE ( 'NONE',  #321 ) ;
#131 = CARTESIAN_POINT ( 'NONE',  ( -2.500000000000000444, 0.000000000000000000, 10.00000000000000000 ) ) ;
#132 = VERTEX_POINT ( 'NONE', #107 ) ;
#133 = PLANE ( 'NONE',  #33 ) ;
#134 = LOCAL_TIME ( 9, 26, 5.000000000000000000, #8 ) ;
#135 = DIRECTION ( 'NONE',  ( -1.000000000000000000, 0.000000000000000000, -0.000000000000000000 ) ) ;
#136 = PLANE ( 'NONE',  #186 ) ;
#137 = ADVANCED_FACE ( 'NONE', ( #261 ), #133, .F. ) ;
#138 = AXIS2_PLACEMENT_3D ( 'NONE', #2, #312, #80 ) ;
#139 = EDGE_CURVE ( 'NONE', #104, #333, #51, .T. ) ;
#140 = DIRECTION ( 'NONE',  ( 0.000000000000000000, 0.000000000000000000, 1.000000000000000000 ) ) ;
#141 = LOCAL_TIME ( 9, 26, 5.000000000000000000, #217 ) ;
#142 = DIRECTION ( 'NONE',  ( 0.000000000000000000, 0.000000000000000000, 1.000000000000000000 ) ) ;
#143 = ORIENTED_EDGE ( 'NONE', *, *, #41, .F. ) ;
#144 = CYLINDRICAL_SURFACE ( 'NONE', #196, 10.00000000000000000 ) ;
#145 = VERTEX_POINT ( 'NONE', #228 ) ;
#146 = AXIS2_PLACEMENT_3D ( 'NONE', #173, #288, #235 ) ;
#147 = MECHANICAL_CONTEXT ( 'NONE', #231, 'mechanical' ) ;
#148 = FACE_OUTER_BOUND ( 'NONE', #4, .T. ) ;
#149 = CARTESIAN_POINT ( 'NONE',  ( -3.000000000000000000, 0.000000000000000000, 0.000000000000000000 ) ) ;
#150 = CARTESIAN_POINT ( 'NONE',  ( -3.000000000000000444, 0.000000000000000000, 0.000000000000000000 ) ) ;
#151 = APPROVAL_DATE_TIME ( #46, #3 ) ;
#152 = DIRECTION ( 'NONE',  ( -1.000000000000000000, -0.000000000000000000, -0.000000000000000000 ) ) ;
#153 = SECURITY_CLASSIFICATION ( '', '', #163 ) ;
#154 = DIRECTION ( 'NONE',  ( -0.000000000000000000, 0.000000000000000000, 1.000000000000000000 ) ) ;
#155 = EDGE_CURVE ( 'NONE', #260, #145, #156, .T. ) ;
#156 = LINE ( 'NONE', #177, #128 ) ;
#157 = ORIENTED_EDGE ( 'NONE', *, *, #48, .T. ) ;
#158 = CARTESIAN_POINT ( 'NONE',  ( -1.614212418857619014, 1.224646799147353256E-15, -10.00000000000000000 ) ) ;
#159 = AXIS2_PLACEMENT_3D ( 'NONE', #72, #232, #103 ) ;
#160 = DIRECTION ( 'NONE',  ( -1.000000000000000000, -0.000000000000000000, -0.000000000000000000 ) ) ;
#161 = LINE ( 'NONE', #32, #174 ) ;
#162 = AXIS2_PLACEMENT_3D ( 'NONE', #208, #334, #210 ) ;
#163 = SECURITY_CLASSIFICATION_LEVEL ( 'unclassified' ) ;
#164 = PERSON_AND_ORGANIZATION_ROLE ( 'creator' ) ;
#165 = DATE_AND_TIME ( #193, #134 ) ;
#166 = AXIS2_PLACEMENT_3D ( 'NONE', #278, #249, #325 ) ;
#167 = DIRECTION ( 'NONE',  ( -1.000000000000000000, -0.000000000000000000, -0.000000000000000000 ) ) ;
#168 = ORIENTED_EDGE ( 'NONE', *, *, #26, .T. ) ;
#169 = APPROVAL ( #5, 'UNSPECIFIED' ) ;
#170 = DIRECTION ( 'NONE',  ( 0.000000000000000000, 0.000000000000000000, 1.000000000000000000 ) ) ;
#171 = ORIENTED_EDGE ( 'NONE', *, *, #327, .F. ) ;
#172 = DATE_AND_TIME ( #34, #262 ) ;
#173 = CARTESIAN_POINT ( 'NONE',  ( -3.000000000000000444, 0.000000000000000000, 0.000000000000000000 ) ) ;
#174 = VECTOR ( 'NONE', #240, 1000.000000000000000 ) ;
#175 = DIRECTION ( 'NONE',  ( 0.000000000000000000, 0.000000000000000000, 1.000000000000000000 ) ) ;
#176 = DIRECTION ( 'NONE',  ( -1.000000000000000000, -0.000000000000000000, -0.000000000000000000 ) ) ;
#177 = CARTESIAN_POINT ( 'NONE',  ( -1.614212418857619014, 1.224646799147353256E-15, -10.00000000000000000 ) ) ;
#178 = FACE_OUTER_BOUND ( 'NONE', #16, .T. ) ;
#179 = CIRCLE ( 'NONE', #162, 10.00000000000000000 ) ;
#180 = CARTESIAN_POINT ( 'NONE',  ( -1.614212418857619014, 0.000000000000000000, 0.000000000000000000 ) ) ;
#181 = DESIGN_CONTEXT ( 'detailed design', #294, 'design' ) ;
#182 = LINE ( 'NONE', #47, #109 ) ;
#183 = ADVANCED_BREP_SHAPE_REPRESENTATION ( 'Q-QZWP-R4-20-633-M', ( #270, #277 ), #304 ) ;
#184 = CARTESIAN_POINT ( 'NONE',  ( 3.000000000000000000, 1.555301434917138433E-15, -12.69999999999999929 ) ) ;
#185 = ORIENTED_EDGE ( 'NONE', *, *, #317, .F. ) ;
#186 = AXIS2_PLACEMENT_3D ( 'NONE', #264, #135, #29 ) ;
#187 = CARTESIAN_POINT ( 'NONE',  ( -2.500000000000000444, 1.224646799147353256E-15, -10.00000000000000000 ) ) ;
#188 = AXIS2_PLACEMENT_3D ( 'NONE', #225, #118, #142 ) ;
#189 = CC_DESIGN_PERSON_AND_ORGANIZATION_ASSIGNMENT ( #112, #83, ( #153 ) ) ;
#190 = PRODUCT ( 'Q-QZWP-R4-20-633-M', 'Q-QZWP-R4-20-633-M', '', ( #147 ) ) ;
#191 = APPROVAL_DATE_TIME ( #290, #169 ) ;
#192 = CIRCLE ( 'NONE', #138, 12.69999999999999929 ) ;
#193 = CALENDAR_DATE ( 2020, 23, 12 ) ;
#194 = ORIENTED_EDGE ( 'NONE', *, *, #212, .F. ) ;
#195 = CIRCLE ( 'NONE', #120, 12.69999999999999929 ) ;
#196 = AXIS2_PLACEMENT_3D ( 'NONE', #44, #93, #170 ) ;
#197 = ORIENTED_EDGE ( 'NONE', *, *, #327, .T. ) ;
#198 = FACE_BOUND ( 'NONE', #271, .T. ) ;
#199 = ORIENTED_EDGE ( 'NONE', *, *, #48, .F. ) ;
#200 = PERSON_AND_ORGANIZATION_ROLE ( 'design_supplier' ) ;
#201 = DIRECTION ( 'NONE',  ( -1.000000000000000000, -0.000000000000000000, -0.000000000000000000 ) ) ;
#202 = APPROVAL ( #35, 'UNSPECIFIED' ) ;
#203 =( LENGTH_UNIT ( ) NAMED_UNIT ( * ) SI_UNIT ( .MILLI., .METRE. ) );
#204 = CC_DESIGN_APPROVAL ( #3, ( #269 ) ) ;
#205 = COORDINATED_UNIVERSAL_TIME_OFFSET ( 8, 0, .AHEAD. ) ;
#206 = CARTESIAN_POINT ( 'NONE',  ( -1.614212418857619014, 1.555301434917138433E-15, -12.69999999999999929 ) ) ;
#207 = CARTESIAN_POINT ( 'NONE',  ( 2.999999999999999112, 1.224646799147353256E-15, -10.00000000000000000 ) ) ;
#208 = CARTESIAN_POINT ( 'NONE',  ( 2.999999999999999112, 0.000000000000000000, 0.000000000000000000 ) ) ;
#209 = PRODUCT_DEFINITION_FORMATION_WITH_SPECIFIED_SOURCE ( 'ANY', '', #190, .NOT_KNOWN. ) ;
#210 = DIRECTION ( 'NONE',  ( 0.000000000000000000, 0.000000000000000000, 1.000000000000000000 ) ) ;
#211 = ORIENTED_EDGE ( 'NONE', *, *, #73, .T. ) ;
#212 = EDGE_CURVE ( 'NONE', #247, #237, #69, .T. ) ;
#213 = DIRECTION ( 'NONE',  ( 0.000000000000000000, 0.000000000000000000, 1.000000000000000000 ) ) ;
#214 = CC_DESIGN_PERSON_AND_ORGANIZATION_ASSIGNMENT ( #87, #200, ( #209 ) ) ;
#215 = CYLINDRICAL_SURFACE ( 'NONE', #90, 10.00000000000000000 ) ;
#216 = VECTOR ( 'NONE', #201, 1000.000000000000000 ) ;
#217 = COORDINATED_UNIVERSAL_TIME_OFFSET ( 8, 0, .AHEAD. ) ;
#218 = CALENDAR_DATE ( 2020, 23, 12 ) ;
#219 = AXIS2_PLACEMENT_3D ( 'NONE', #149, #176, #113 ) ;
#220 = PERSON_AND_ORGANIZATION ( #91, #13 ) ;
#221 = CC_DESIGN_PERSON_AND_ORGANIZATION_ASSIGNMENT ( #242, #45, ( #190 ) ) ;
#222 = AXIS2_PLACEMENT_3D ( 'NONE', #180, #105, #19 ) ;
#223 = CARTESIAN_POINT ( 'NONE',  ( 2.500000000000000888, 0.000000000000000000, 10.00000000000000000 ) ) ;
#224 = ADVANCED_FACE ( 'NONE', ( #178 ), #125, .F. ) ;
#225 = CARTESIAN_POINT ( 'NONE',  ( -1.614212418857619014, 0.000000000000000000, 0.000000000000000000 ) ) ;
#226 = ORIENTED_EDGE ( 'NONE', *, *, #126, .T. ) ;
#227 = CALENDAR_DATE ( 2020, 23, 12 ) ;
#228 = CARTESIAN_POINT ( 'NONE',  ( 2.500000000000000888, 1.224646799147353256E-15, -10.00000000000000000 ) ) ;
#229 = CC_DESIGN_APPROVAL ( #169, ( #153 ) ) ;
#230 = DIRECTION ( 'NONE',  ( -1.000000000000000000, -0.000000000000000000, -0.000000000000000000 ) ) ;
#231 = APPLICATION_CONTEXT ( 'configuration controlled 3d designs of mechanical parts and assemblies' ) ;
#232 = DIRECTION ( 'NONE',  ( -1.000000000000000000, -0.000000000000000000, -0.000000000000000000 ) ) ;
#233 = DIRECTION ( 'NONE',  ( 0.000000000000000000, 0.000000000000000000, -1.000000000000000000 ) ) ;
#234 = ORIENTED_EDGE ( 'NONE', *, *, #139, .T. ) ;
#235 = DIRECTION ( 'NONE',  ( 0.000000000000000000, 0.000000000000000000, 1.000000000000000000 ) ) ;
#236 = EDGE_CURVE ( 'NONE', #297, #244, #182, .T. ) ;
#237 = VERTEX_POINT ( 'NONE', #23 ) ;
#238 = DIRECTION ( 'NONE',  ( -1.000000000000000000, -0.000000000000000000, -0.000000000000000000 ) ) ;
#239 = ORIENTED_EDGE ( 'NONE', *, *, #126, .F. ) ;
#240 = DIRECTION ( 'NONE',  ( -1.000000000000000000, -0.000000000000000000, -0.000000000000000000 ) ) ;
#241 = CC_DESIGN_APPROVAL ( #202, ( #209 ) ) ;
#242 = PERSON_AND_ORGANIZATION ( #91, #13 ) ;
#243 = CC_DESIGN_DATE_AND_TIME_ASSIGNMENT ( #172, #85, ( #269 ) ) ;
#244 = VERTEX_POINT ( 'NONE', #259 ) ;
#245 = ORIENTED_EDGE ( 'NONE', *, *, #236, .T. ) ;
#246 = DIRECTION ( 'NONE',  ( 0.000000000000000000, 0.000000000000000000, -1.000000000000000000 ) ) ;
#247 = VERTEX_POINT ( 'NONE', #332 ) ;
#248 = CIRCLE ( 'NONE', #84, 10.00000000000000000 ) ;
#249 = DIRECTION ( 'NONE',  ( 1.000000000000000000, 0.000000000000000000, 0.000000000000000000 ) ) ;
#250 = VERTEX_POINT ( 'NONE', #131 ) ;
#251 = APPLICATION_PROTOCOL_DEFINITION ( 'international standard', 'config_control_design', 1994, #294 ) ;
#252 = UNCERTAINTY_MEASURE_WITH_UNIT (LENGTH_MEASURE( 1.000000000000000082E-05 ), #203, 'distance_accuracy_value', 'NONE');
#253 = DIRECTION ( 'NONE',  ( -1.000000000000000000, -0.000000000000000000, -0.000000000000000000 ) ) ;
#254 = ADVANCED_FACE ( 'NONE', ( #129, #52 ), #130, .F. ) ;
#255 = FACE_OUTER_BOUND ( 'NONE', #300, .T. ) ;
#256 = VECTOR ( 'NONE', #101, 1000.000000000000000 ) ;
#257 = EDGE_CURVE ( 'NONE', #122, #247, #329, .T. ) ;
#258 = DIRECTION ( 'NONE',  ( -1.000000000000000000, -0.000000000000000000, -0.000000000000000000 ) ) ;
#259 = CARTESIAN_POINT ( 'NONE',  ( -3.000000000000000000, 0.000000000000000000, 12.69999999999999929 ) ) ;
#260 = VERTEX_POINT ( 'NONE', #207 ) ;
#261 = FACE_OUTER_BOUND ( 'NONE', #65, .T. ) ;
#262 = LOCAL_TIME ( 9, 26, 5.000000000000000000, #123 ) ;
#263 = PRODUCT_DEFINITION_SHAPE ( 'NONE', 'NONE',  #269 ) ;
#264 = CARTESIAN_POINT ( 'NONE',  ( 2.500000000000000444, 10.00000000000000000, 0.000000000000000000 ) ) ;
#265 = EDGE_LOOP ( 'NONE', ( #22, #117 ) ) ;
#266 = DIRECTION ( 'NONE',  ( 0.000000000000000000, 0.000000000000000000, 1.000000000000000000 ) ) ;
#267 = CIRCLE ( 'NONE', #295, 10.00000000000000000 ) ;
#268 = COORDINATED_UNIVERSAL_TIME_OFFSET ( 8, 0, .AHEAD. ) ;
#269 = PRODUCT_DEFINITION ( 'UNKNOWN', '', #209, #181 ) ;
#270 = MANIFOLD_SOLID_BREP ( 'Ðý×', #28 ) ;
#271 = EDGE_LOOP ( 'NONE', ( #38, #194 ) ) ;
#272 = CC_DESIGN_SECURITY_CLASSIFICATION ( #153, ( #209 ) ) ;
#273 = DIRECTION ( 'NONE',  ( 0.000000000000000000, 0.000000000000000000, 1.000000000000000000 ) ) ;
#274 = ORIENTED_EDGE ( 'NONE', *, *, #155, .T. ) ;
#275 = DIRECTION ( 'NONE',  ( 1.000000000000000000, 0.000000000000000000, 0.000000000000000000 ) ) ;
#276 = EDGE_LOOP ( 'NONE', ( #326, #274, #77, #199 ) ) ;
#277 = AXIS2_PLACEMENT_3D ( 'NONE', #17, #175, #43 ) ;
#278 = CARTESIAN_POINT ( 'NONE',  ( -2.500000000000000444, 0.000000000000000000, 0.000000000000000000 ) ) ;
#279 = DIRECTION ( 'NONE',  ( 1.000000000000000000, 0.000000000000000000, 0.000000000000000000 ) ) ;
#280 = ADVANCED_FACE ( 'NONE', ( #255 ), #281, .T. ) ;
#281 = CYLINDRICAL_SURFACE ( 'NONE', #42, 12.69999999999999929 ) ;
#282 = CIRCLE ( 'NONE', #318, 10.00000000000000000 ) ;
#283 = CARTESIAN_POINT ( 'NONE',  ( -1.614212418857619014, 0.000000000000000000, 0.000000000000000000 ) ) ;
#284 = DIRECTION ( 'NONE',  ( -1.000000000000000000, -0.000000000000000000, -0.000000000000000000 ) ) ;
#285 = EDGE_LOOP ( 'NONE', ( #197, #94 ) ) ;
#286 = FACE_OUTER_BOUND ( 'NONE', #63, .T. ) ;
#287 = APPROVAL_PERSON_ORGANIZATION ( #124, #3, #67 ) ;
#288 = DIRECTION ( 'NONE',  ( -1.000000000000000000, -0.000000000000000000, -0.000000000000000000 ) ) ;
#289 = CC_DESIGN_DATE_AND_TIME_ASSIGNMENT ( #291, #111, ( #153 ) ) ;
#290 = DATE_AND_TIME ( #58, #36 ) ;
#291 = DATE_AND_TIME ( #218, #141 ) ;
#292 = APPROVAL_PERSON_ORGANIZATION ( #6, #202, #319 ) ;
#293 = CARTESIAN_POINT ( 'NONE',  ( -3.000000000000000000, 1.555301434917138433E-15, -12.69999999999999929 ) ) ;
#294 = APPLICATION_CONTEXT ( 'configuration controlled 3d designs of mechanical parts and assemblies' ) ;
#295 = AXIS2_PLACEMENT_3D ( 'NONE', #76, #284, #140 ) ;
#296 = ORIENTED_EDGE ( 'NONE', *, *, #212, .T. ) ;
#297 = VERTEX_POINT ( 'NONE', #310 ) ;
#298 = EDGE_LOOP ( 'NONE', ( #62, #89, #226, #211 ) ) ;
#299 = FACE_OUTER_BOUND ( 'NONE', #285, .T. ) ;
#300 = EDGE_LOOP ( 'NONE', ( #324, #168, #245, #12 ) ) ;
#301 = APPLICATION_PROTOCOL_DEFINITION ( 'international standard', 'config_control_design', 1994, #231 ) ;
#302 = LINE ( 'NONE', #11, #216 ) ;
#303 = EDGE_CURVE ( 'NONE', #122, #250, #248, .T. ) ;
#304 =( GEOMETRIC_REPRESENTATION_CONTEXT ( 3 ) GLOBAL_UNCERTAINTY_ASSIGNED_CONTEXT ( ( #252 ) ) GLOBAL_UNIT_ASSIGNED_CONTEXT ( ( #203, #305, #99 ) ) REPRESENTATION_CONTEXT ( 'NONE', 'WORKASPACE' ) );
#305 =( NAMED_UNIT ( * ) PLANE_ANGLE_UNIT ( ) SI_UNIT ( $, .RADIAN. ) );
#306 = CARTESIAN_POINT ( 'NONE',  ( 2.999999999999999112, 12.69999999999999929, 0.000000000000000000 ) ) ;
#307 = ADVANCED_FACE ( 'NONE', ( #21 ), #308, .F. ) ;
#308 = CYLINDRICAL_SURFACE ( 'NONE', #159, 10.00000000000000000 ) ;
#309 = DIRECTION ( 'NONE',  ( -1.000000000000000000, 0.000000000000000000, -0.000000000000000000 ) ) ;
#310 = CARTESIAN_POINT ( 'NONE',  ( 3.000000000000000000, 0.000000000000000000, 12.69999999999999929 ) ) ;
#311 = EDGE_LOOP ( 'NONE', ( #24, #88, #157, #106 ) ) ;
#312 = DIRECTION ( 'NONE',  ( -1.000000000000000000, -0.000000000000000000, -0.000000000000000000 ) ) ;
#313 = ORIENTED_EDGE ( 'NONE', *, *, #97, .F. ) ;
#314 = DIRECTION ( 'NONE',  ( 0.000000000000000000, 0.000000000000000000, 1.000000000000000000 ) ) ;
#315 = PERSON_AND_ORGANIZATION ( #91, #13 ) ;
#316 = EDGE_CURVE ( 'NONE', #132, #260, #179, .T. ) ;
#317 = EDGE_CURVE ( 'NONE', #145, #40, #267, .T. ) ;
#318 = AXIS2_PLACEMENT_3D ( 'NONE', #55, #238, #213 ) ;
#319 = APPROVAL_ROLE ( '' ) ;
#320 = PERSON_AND_ORGANIZATION_ROLE ( 'creator' ) ;
#321 = AXIS2_PLACEMENT_3D ( 'NONE', #306, #309, #154 ) ;
#322 = ORIENTED_EDGE ( 'NONE', *, *, #257, .T. ) ;
#323 = CYLINDRICAL_SURFACE ( 'NONE', #188, 12.69999999999999929 ) ;
#324 = ORIENTED_EDGE ( 'NONE', *, *, #139, .F. ) ;
#325 = DIRECTION ( 'NONE',  ( 0.000000000000000000, 0.000000000000000000, -1.000000000000000000 ) ) ;
#326 = ORIENTED_EDGE ( 'NONE', *, *, #66, .F. ) ;
#327 = EDGE_CURVE ( 'NONE', #244, #333, #27, .T. ) ;
#328 = PERSON_AND_ORGANIZATION ( #91, #13 ) ;
#329 = LINE ( 'NONE', #158, #98 ) ;
#330 = APPROVAL_PERSON_ORGANIZATION ( #315, #169, #82 ) ;
#331 = CARTESIAN_POINT ( 'NONE',  ( -2.500000000000000444, 0.000000000000000000, 0.000000000000000000 ) ) ;
#332 = CARTESIAN_POINT ( 'NONE',  ( -3.000000000000000444, 1.224646799147353256E-15, -10.00000000000000000 ) ) ;
#333 = VERTEX_POINT ( 'NONE', #293 ) ;
#334 = DIRECTION ( 'NONE',  ( -1.000000000000000000, -0.000000000000000000, -0.000000000000000000 ) ) ;
#335 = CARTESIAN_POINT ( 'NONE',  ( -3.000000000000000000, 0.000000000000000000, 0.000000000000000000 ) ) ;
ENDSEC;
END-ISO-10303-21;
